ISO-10303-21;
HEADER;
FILE_DESCRIPTION (( 'STEP AP203' ),
    '1' );
FILE_NAME ('QB-CTZHWP-12.7-894-M.STEP',
    '2020-12-24T01:35:24',
    ( '' ),
    ( '' ),
    'SwSTEP 2.0',
    'SolidWorks 2020',
    '' );
FILE_SCHEMA (( 'CONFIG_CONTROL_DESIGN' ));
ENDSEC;

DATA;
#1 = EDGE_CURVE ( 'NONE', #27, #323, #232, .T. ) ;
#2 = CIRCLE ( 'NONE', #228, 6.349999999999999645 ) ;
#3 = DIRECTION ( 'NONE',  ( 1.000000000000000000, 0.000000000000000000, 0.000000000000000000 ) ) ;
#4 = DIRECTION ( 'NONE',  ( 0.000000000000000000, 0.000000000000000000, 1.000000000000000000 ) ) ;
#5 = MANIFOLD_SOLID_BREP ( 'Ðý×', #199 ) ;
#6 = DIRECTION ( 'NONE',  ( 0.000000000000000000, 0.000000000000000000, -1.000000000000000000 ) ) ;
#7 = LOCAL_TIME ( 9, 35, 24.00000000000000000, #279 ) ;
#8 = DIRECTION ( 'NONE',  ( 0.000000000000000000, 0.000000000000000000, 1.000000000000000000 ) ) ;
#9 = CARTESIAN_POINT ( 'NONE',  ( -2.999999999999999556, 7.776507174585692163E-16, -6.349999999999999645 ) ) ;
#10 = CARTESIAN_POINT ( 'NONE',  ( -3.000000000000000000, 0.000000000000000000, 0.000000000000000000 ) ) ;
#11 = AXIS2_PLACEMENT_3D ( 'NONE', #293, #156, #209 ) ;
#12 = CIRCLE ( 'NONE', #98, 6.349999999999999645 ) ;
#13 = CARTESIAN_POINT ( 'NONE',  ( -3.000000000000000000, 0.000000000000000000, 12.69999999999999929 ) ) ;
#14 = LOCAL_TIME ( 9, 35, 24.00000000000000000, #247 ) ;
#15 = ORIENTED_EDGE ( 'NONE', *, *, #319, .T. ) ;
#16 = LINE ( 'NONE', #118, #131 ) ;
#17 = APPROVAL_ROLE ( '' ) ;
#18 = CARTESIAN_POINT ( 'NONE',  ( -1.614212418857619014, 0.000000000000000000, 0.000000000000000000 ) ) ;
#19 = PLANE ( 'NONE',  #30 ) ;
#20 = PERSON_AND_ORGANIZATION_ROLE ( 'classification_officer' ) ;
#21 = EDGE_LOOP ( 'NONE', ( #57, #52 ) ) ;
#22 = CALENDAR_DATE ( 2020, 24, 12 ) ;
#23 = CIRCLE ( 'NONE', #42, 6.349999999999999645 ) ;
#24 = ORIENTED_EDGE ( 'NONE', *, *, #1, .F. ) ;
#25 = AXIS2_PLACEMENT_3D ( 'NONE', #266, #108, #64 ) ;
#26 = PERSON_AND_ORGANIZATION ( #207, #116 ) ;
#27 = VERTEX_POINT ( 'NONE', #301 ) ;
#28 = ORIENTED_EDGE ( 'NONE', *, *, #158, .T. ) ;
#29 = ADVANCED_FACE ( 'NONE', ( #226 ), #252, .T. ) ;
#30 = AXIS2_PLACEMENT_3D ( 'NONE', #114, #90, #239 ) ;
#31 = ADVANCED_FACE ( 'NONE', ( #308 ), #333, .F. ) ;
#32 = EDGE_CURVE ( 'NONE', #220, #261, #72, .T. ) ;
#33 = CC_DESIGN_DATE_AND_TIME_ASSIGNMENT ( #275, #332, ( #254 ) ) ;
#34 = CARTESIAN_POINT ( 'NONE',  ( 3.000000000000000888, 7.776507174585692163E-16, -6.349999999999999645 ) ) ;
#35 = CARTESIAN_POINT ( 'NONE',  ( 0.000000000000000000, 0.000000000000000000, 0.000000000000000000 ) ) ;
#36 = CARTESIAN_POINT ( 'NONE',  ( 3.000000000000000888, 0.000000000000000000, 0.000000000000000000 ) ) ;
#37 = CYLINDRICAL_SURFACE ( 'NONE', #233, 6.349999999999999645 ) ;
#38 = DIRECTION ( 'NONE',  ( -1.000000000000000000, -0.000000000000000000, -0.000000000000000000 ) ) ;
#39 = FACE_OUTER_BOUND ( 'NONE', #334, .T. ) ;
#40 = ORIENTED_EDGE ( 'NONE', *, *, #41, .F. ) ;
#41 = EDGE_CURVE ( 'NONE', #276, #326, #102, .T. ) ;
#42 = AXIS2_PLACEMENT_3D ( 'NONE', #58, #62, #294 ) ;
#43 = FACE_OUTER_BOUND ( 'NONE', #329, .T. ) ;
#44 = DATE_AND_TIME ( #94, #56 ) ;
#45 = VECTOR ( 'NONE', #160, 1000.000000000000000 ) ;
#46 = EDGE_LOOP ( 'NONE', ( #117, #54, #123, #103 ) ) ;
#47 = APPROVAL_STATUS ( 'not_yet_approved' ) ;
#48 = ORIENTED_EDGE ( 'NONE', *, *, #32, .T. ) ;
#49 = DATE_TIME_ROLE ( 'classification_date' ) ;
#50 = ORIENTED_EDGE ( 'NONE', *, *, #127, .F. ) ;
#51 = DATE_AND_TIME ( #22, #7 ) ;
#52 = ORIENTED_EDGE ( 'NONE', *, *, #85, .F. ) ;
#53 = VECTOR ( 'NONE', #272, 1000.000000000000000 ) ;
#54 = ORIENTED_EDGE ( 'NONE', *, *, #297, .T. ) ;
#55 = UNCERTAINTY_MEASURE_WITH_UNIT (LENGTH_MEASURE( 1.000000000000000082E-05 ), #84, 'distance_accuracy_value', 'NONE');
#56 = LOCAL_TIME ( 9, 35, 24.00000000000000000, #96 ) ;
#57 = ORIENTED_EDGE ( 'NONE', *, *, #115, .F. ) ;
#58 = CARTESIAN_POINT ( 'NONE',  ( -2.999999999999999556, 0.000000000000000000, 0.000000000000000000 ) ) ;
#59 = EDGE_CURVE ( 'NONE', #88, #326, #311, .T. ) ;
#60 = PRODUCT_DEFINITION_FORMATION_WITH_SPECIFIED_SOURCE ( 'ANY', '', #177, .NOT_KNOWN. ) ;
#61 = DIRECTION ( 'NONE',  ( 0.000000000000000000, 0.000000000000000000, 1.000000000000000000 ) ) ;
#62 = DIRECTION ( 'NONE',  ( -1.000000000000000000, -0.000000000000000000, -0.000000000000000000 ) ) ;
#63 = EDGE_CURVE ( 'NONE', #88, #152, #265, .T. ) ;
#64 = DIRECTION ( 'NONE',  ( 0.000000000000000000, 0.000000000000000000, 1.000000000000000000 ) ) ;
#65 = DIRECTION ( 'NONE',  ( 0.000000000000000000, 0.000000000000000000, 1.000000000000000000 ) ) ;
#66 = DIRECTION ( 'NONE',  ( -1.000000000000000000, -0.000000000000000000, -0.000000000000000000 ) ) ;
#67 = CC_DESIGN_PERSON_AND_ORGANIZATION_ASSIGNMENT ( #119, #251, ( #60 ) ) ;
#68 = DIRECTION ( 'NONE',  ( 0.000000000000000000, 0.000000000000000000, 1.000000000000000000 ) ) ;
#69 = PERSON_AND_ORGANIZATION ( #207, #116 ) ;
#70 = CIRCLE ( 'NONE', #77, 12.69999999999999929 ) ;
#71 = ORIENTED_EDGE ( 'NONE', *, *, #262, .T. ) ;
#72 = LINE ( 'NONE', #248, #310 ) ;
#73 = APPROVAL ( #190, 'UNSPECIFIED' ) ;
#74 = PERSON_AND_ORGANIZATION_ROLE ( 'design_owner' ) ;
#75 = CARTESIAN_POINT ( 'NONE',  ( -1.614212418857619014, 0.000000000000000000, 0.000000000000000000 ) ) ;
#76 = CARTESIAN_POINT ( 'NONE',  ( -1.614212418857619014, 0.000000000000000000, 12.69999999999999929 ) ) ;
#77 = AXIS2_PLACEMENT_3D ( 'NONE', #10, #189, #68 ) ;
#78 = ORIENTED_EDGE ( 'NONE', *, *, #115, .T. ) ;
#79 = ADVANCED_FACE ( 'NONE', ( #83 ), #320, .F. ) ;
#80 = DIRECTION ( 'NONE',  ( -1.000000000000000000, -0.000000000000000000, -0.000000000000000000 ) ) ;
#81 = FACE_OUTER_BOUND ( 'NONE', #288, .T. ) ;
#82 = CARTESIAN_POINT ( 'NONE',  ( -2.999999999999999556, 0.000000000000000000, 0.000000000000000000 ) ) ;
#83 = FACE_OUTER_BOUND ( 'NONE', #188, .T. ) ;
#84 =( LENGTH_UNIT ( ) NAMED_UNIT ( * ) SI_UNIT ( .MILLI., .METRE. ) );
#85 = EDGE_CURVE ( 'NONE', #174, #170, #23, .T. ) ;
#86 = ORIENTED_EDGE ( 'NONE', *, *, #314, .F. ) ;
#87 = PERSON_AND_ORGANIZATION ( #207, #116 ) ;
#88 = VERTEX_POINT ( 'NONE', #181 ) ;
#89 = APPLICATION_CONTEXT ( 'configuration controlled 3d designs of mechanical parts and assemblies' ) ;
#90 = DIRECTION ( 'NONE',  ( -1.000000000000000000, 0.000000000000000000, -0.000000000000000000 ) ) ;
#91 = APPROVAL_DATE_TIME ( #328, #73 ) ;
#92 = AXIS2_PLACEMENT_3D ( 'NONE', #268, #183, #4 ) ;
#93 = ORIENTED_EDGE ( 'NONE', *, *, #1, .T. ) ;
#94 = CALENDAR_DATE ( 2020, 24, 12 ) ;
#95 = EDGE_LOOP ( 'NONE', ( #50, #24 ) ) ;
#96 = COORDINATED_UNIVERSAL_TIME_OFFSET ( 8, 0, .AHEAD. ) ;
#97 = EDGE_LOOP ( 'NONE', ( #145, #28, #305, #40 ) ) ;
#98 = AXIS2_PLACEMENT_3D ( 'NONE', #82, #159, #315 ) ;
#99 = EDGE_CURVE ( 'NONE', #229, #261, #202, .T. ) ;
#100 = APPROVAL_PERSON_ORGANIZATION ( #140, #106, #17 ) ;
#101 = ORIENTED_EDGE ( 'NONE', *, *, #41, .T. ) ;
#102 = CIRCLE ( 'NONE', #286, 12.69999999999999929 ) ;
#103 = ORIENTED_EDGE ( 'NONE', *, *, #281, .F. ) ;
#104 = AXIS2_PLACEMENT_3D ( 'NONE', #238, #38, #8 ) ;
#105 = AXIS2_PLACEMENT_3D ( 'NONE', #316, #298, #133 ) ;
#106 = APPROVAL ( #169, 'UNSPECIFIED' ) ;
#107 = DIRECTION ( 'NONE',  ( 0.000000000000000000, 0.000000000000000000, -1.000000000000000000 ) ) ;
#108 = DIRECTION ( 'NONE',  ( -1.000000000000000000, -0.000000000000000000, -0.000000000000000000 ) ) ;
#109 = CARTESIAN_POINT ( 'NONE',  ( 3.000000000000000888, 0.000000000000000000, 6.349999999999999645 ) ) ;
#110 =( GEOMETRIC_REPRESENTATION_CONTEXT ( 3 ) GLOBAL_UNCERTAINTY_ASSIGNED_CONTEXT ( ( #55 ) ) GLOBAL_UNIT_ASSIGNED_CONTEXT ( ( #84, #134, #213 ) ) REPRESENTATION_CONTEXT ( 'NONE', 'WORKASPACE' ) );
#111 = APPLICATION_CONTEXT ( 'configuration controlled 3d designs of mechanical parts and assemblies' ) ;
#112 = CARTESIAN_POINT ( 'NONE',  ( 3.000000000000000000, 1.555301434917138433E-15, -12.69999999999999929 ) ) ;
#113 = FACE_OUTER_BOUND ( 'NONE', #95, .T. ) ;
#114 = CARTESIAN_POINT ( 'NONE',  ( 3.000000000000000000, 12.69999999999999929, 0.000000000000000000 ) ) ;
#115 = EDGE_CURVE ( 'NONE', #170, #174, #12, .T. ) ;
#116 = ORGANIZATION ( 'UNSPECIFIED', 'UNSPECIFIED', '' ) ;
#117 = ORIENTED_EDGE ( 'NONE', *, *, #127, .T. ) ;
#118 = CARTESIAN_POINT ( 'NONE',  ( -1.614212418857619014, 0.000000000000000000, 6.349999999999999645 ) ) ;
#119 = PERSON_AND_ORGANIZATION ( #207, #116 ) ;
#120 = DIRECTION ( 'NONE',  ( -1.000000000000000000, -0.000000000000000000, -0.000000000000000000 ) ) ;
#121 = CARTESIAN_POINT ( 'NONE',  ( 1.500000000000000888, 0.000000000000000000, 0.000000000000000000 ) ) ;
#122 = COORDINATED_UNIVERSAL_TIME_OFFSET ( 8, 0, .AHEAD. ) ;
#123 = ORIENTED_EDGE ( 'NONE', *, *, #85, .T. ) ;
#124 = ORIENTED_EDGE ( 'NONE', *, *, #158, .F. ) ;
#125 = DIRECTION ( 'NONE',  ( 1.000000000000000000, 0.000000000000000000, 0.000000000000000000 ) ) ;
#126 = ADVANCED_FACE ( 'NONE', ( #318 ), #234, .F. ) ;
#127 = EDGE_CURVE ( 'NONE', #323, #27, #287, .T. ) ;
#128 = CC_DESIGN_DATE_AND_TIME_ASSIGNMENT ( #44, #49, ( #192 ) ) ;
#129 = CARTESIAN_POINT ( 'NONE',  ( 1.500000000000000888, 0.000000000000000000, 6.349999999999999645 ) ) ;
#130 = DIRECTION ( 'NONE',  ( 0.000000000000000000, 0.000000000000000000, 1.000000000000000000 ) ) ;
#131 = VECTOR ( 'NONE', #324, 1000.000000000000000 ) ;
#132 = FACE_OUTER_BOUND ( 'NONE', #46, .T. ) ;
#133 = DIRECTION ( 'NONE',  ( 0.000000000000000000, 0.000000000000000000, -1.000000000000000000 ) ) ;
#134 =( NAMED_UNIT ( * ) PLANE_ANGLE_UNIT ( ) SI_UNIT ( $, .RADIAN. ) );
#135 = CARTESIAN_POINT ( 'NONE',  ( 3.000000000000000000, 0.000000000000000000, 0.000000000000000000 ) ) ;
#136 = CARTESIAN_POINT ( 'NONE',  ( -1.614212418857619014, 0.000000000000000000, 0.000000000000000000 ) ) ;
#137 = PERSON_AND_ORGANIZATION ( #207, #116 ) ;
#138 = ORIENTED_EDGE ( 'NONE', *, *, #63, .T. ) ;
#139 = CARTESIAN_POINT ( 'NONE',  ( -1.614212418857619014, 7.776507174585692163E-16, -6.349999999999999645 ) ) ;
#140 = PERSON_AND_ORGANIZATION ( #207, #116 ) ;
#141 = EDGE_LOOP ( 'NONE', ( #263, #146, #71, #285 ) ) ;
#142 = ORIENTED_EDGE ( 'NONE', *, *, #314, .T. ) ;
#143 = AXIS2_PLACEMENT_3D ( 'NONE', #18, #66, #162 ) ;
#144 = APPROVAL_DATE_TIME ( #51, #106 ) ;
#145 = ORIENTED_EDGE ( 'NONE', *, *, #319, .F. ) ;
#146 = ORIENTED_EDGE ( 'NONE', *, *, #245, .F. ) ;
#147 = ADVANCED_FACE ( 'NONE', ( #206 ), #37, .F. ) ;
#148 = ADVANCED_FACE ( 'NONE', ( #132 ), #153, .F. ) ;
#149 = ORIENTED_EDGE ( 'NONE', *, *, #281, .T. ) ;
#150 = LOCAL_TIME ( 9, 35, 24.00000000000000000, #330 ) ;
#151 = CC_DESIGN_PERSON_AND_ORGANIZATION_ASSIGNMENT ( #69, #74, ( #177 ) ) ;
#152 = VERTEX_POINT ( 'NONE', #112 ) ;
#153 = CYLINDRICAL_SURFACE ( 'NONE', #25, 6.349999999999999645 ) ;
#154 = CC_DESIGN_APPROVAL ( #290, ( #254 ) ) ;
#155 = DIRECTION ( 'NONE',  ( 0.000000000000000000, 0.000000000000000000, 1.000000000000000000 ) ) ;
#156 = DIRECTION ( 'NONE',  ( -1.000000000000000000, 0.000000000000000000, -0.000000000000000000 ) ) ;
#157 = AXIS2_PLACEMENT_3D ( 'NONE', #166, #125, #217 ) ;
#158 = EDGE_CURVE ( 'NONE', #152, #88, #203, .T. ) ;
#159 = DIRECTION ( 'NONE',  ( -1.000000000000000000, -0.000000000000000000, -0.000000000000000000 ) ) ;
#160 = DIRECTION ( 'NONE',  ( -1.000000000000000000, -0.000000000000000000, -0.000000000000000000 ) ) ;
#161 = CARTESIAN_POINT ( 'NONE',  ( -3.000000000000000000, 1.555301434917138433E-15, -12.69999999999999929 ) ) ;
#162 = DIRECTION ( 'NONE',  ( 0.000000000000000000, 0.000000000000000000, 1.000000000000000000 ) ) ;
#163 = VECTOR ( 'NONE', #273, 1000.000000000000000 ) ;
#164 = CARTESIAN_POINT ( 'NONE',  ( 3.000000000000000888, 0.000000000000000000, 0.000000000000000000 ) ) ;
#165 = APPROVAL_ROLE ( '' ) ;
#166 = CARTESIAN_POINT ( 'NONE',  ( -1.500000000000000444, 0.000000000000000000, 0.000000000000000000 ) ) ;
#167 = LINE ( 'NONE', #321, #53 ) ;
#168 = CARTESIAN_POINT ( 'NONE',  ( -3.000000000000000000, 0.000000000000000000, 0.000000000000000000 ) ) ;
#169 = APPROVAL_STATUS ( 'not_yet_approved' ) ;
#170 = VERTEX_POINT ( 'NONE', #204 ) ;
#171 = CC_DESIGN_SECURITY_CLASSIFICATION ( #192, ( #60 ) ) ;
#172 = EDGE_CURVE ( 'NONE', #220, #230, #237, .T. ) ;
#173 = ORIENTED_EDGE ( 'NONE', *, *, #172, .T. ) ;
#174 = VERTEX_POINT ( 'NONE', #9 ) ;
#175 = SHAPE_DEFINITION_REPRESENTATION ( #180, #313 ) ;
#176 = ADVANCED_FACE ( 'NONE', ( #113 ), #205, .F. ) ;
#177 = PRODUCT ( 'QB-CTZHWP-12.7-894-M', 'QB-CTZHWP-12.7-894-M', '', ( #240 ) ) ;
#178 = ORIENTED_EDGE ( 'NONE', *, *, #258, .F. ) ;
#179 = CC_DESIGN_APPROVAL ( #73, ( #192 ) ) ;
#180 = PRODUCT_DEFINITION_SHAPE ( 'NONE', 'NONE',  #254 ) ;
#181 = CARTESIAN_POINT ( 'NONE',  ( 3.000000000000000000, 0.000000000000000000, 12.69999999999999929 ) ) ;
#182 = PLANE ( 'NONE',  #212 ) ;
#183 = DIRECTION ( 'NONE',  ( -1.000000000000000000, -0.000000000000000000, -0.000000000000000000 ) ) ;
#184 = DIRECTION ( 'NONE',  ( 0.000000000000000000, 0.000000000000000000, 1.000000000000000000 ) ) ;
#185 = CC_DESIGN_PERSON_AND_ORGANIZATION_ASSIGNMENT ( #26, #20, ( #192 ) ) ;
#186 = DIRECTION ( 'NONE',  ( 0.000000000000000000, 0.000000000000000000, 1.000000000000000000 ) ) ;
#187 = DIRECTION ( 'NONE',  ( -1.000000000000000000, -0.000000000000000000, -0.000000000000000000 ) ) ;
#188 = EDGE_LOOP ( 'NONE', ( #243, #86 ) ) ;
#189 = DIRECTION ( 'NONE',  ( -1.000000000000000000, -0.000000000000000000, -0.000000000000000000 ) ) ;
#190 = APPROVAL_STATUS ( 'not_yet_approved' ) ;
#191 = ORIENTED_EDGE ( 'NONE', *, *, #63, .F. ) ;
#192 = SECURITY_CLASSIFICATION ( '', '', #325 ) ;
#193 = DIRECTION ( 'NONE',  ( -1.000000000000000000, -0.000000000000000000, -0.000000000000000000 ) ) ;
#194 = APPROVAL_DATE_TIME ( #282, #290 ) ;
#195 = DIRECTION ( 'NONE',  ( 0.000000000000000000, 0.000000000000000000, 1.000000000000000000 ) ) ;
#196 = CALENDAR_DATE ( 2020, 24, 12 ) ;
#197 = ORIENTED_EDGE ( 'NONE', *, *, #262, .F. ) ;
#198 = DIRECTION ( 'NONE',  ( 0.000000000000000000, 0.000000000000000000, 1.000000000000000000 ) ) ;
#199 = CLOSED_SHELL ( 'NONE', ( #250, #148, #126, #79, #31, #147, #201, #29, #302, #176 ) ) ;
#200 = AXIS2_PLACEMENT_3D ( 'NONE', #136, #242, #65 ) ;
#201 = ADVANCED_FACE ( 'NONE', ( #236, #81 ), #182, .F. ) ;
#202 = CIRCLE ( 'NONE', #104, 6.349999999999999645 ) ;
#203 = CIRCLE ( 'NONE', #335, 12.69999999999999929 ) ;
#204 = CARTESIAN_POINT ( 'NONE',  ( -2.999999999999999556, 0.000000000000000000, 6.349999999999999645 ) ) ;
#205 = PLANE ( 'NONE',  #105 ) ;
#206 = FACE_OUTER_BOUND ( 'NONE', #223, .T. ) ;
#207 = PERSON ( 'UNSPECIFIED', 'UNSPECIFIED', 'UNSPECIFIED', ('UNSPECIFIED'), ('UNSPECIFIED'), ('UNSPECIFIED') ) ;
#208 = DIRECTION ( 'NONE',  ( -1.000000000000000000, -0.000000000000000000, -0.000000000000000000 ) ) ;
#209 = DIRECTION ( 'NONE',  ( -0.000000000000000000, 0.000000000000000000, 1.000000000000000000 ) ) ;
#210 = DIRECTION ( 'NONE',  ( 0.000000000000000000, 0.000000000000000000, 1.000000000000000000 ) ) ;
#211 = AXIS2_PLACEMENT_3D ( 'NONE', #75, #280, #195 ) ;
#212 = AXIS2_PLACEMENT_3D ( 'NONE', #267, #3, #107 ) ;
#213 =( NAMED_UNIT ( * ) SI_UNIT ( $, .STERADIAN. ) SOLID_ANGLE_UNIT ( ) );
#214 = ORIENTED_EDGE ( 'NONE', *, *, #172, .F. ) ;
#215 = CARTESIAN_POINT ( 'NONE',  ( -1.614212418857619014, 0.000000000000000000, 6.349999999999999645 ) ) ;
#216 = PERSON_AND_ORGANIZATION_ROLE ( 'design_supplier' ) ;
#217 = DIRECTION ( 'NONE',  ( 0.000000000000000000, 0.000000000000000000, -1.000000000000000000 ) ) ;
#218 = DIRECTION ( 'NONE',  ( 0.000000000000000000, 0.000000000000000000, 1.000000000000000000 ) ) ;
#219 = CALENDAR_DATE ( 2020, 24, 12 ) ;
#220 = VERTEX_POINT ( 'NONE', #34 ) ;
#221 = AXIS2_PLACEMENT_3D ( 'NONE', #164, #193, #210 ) ;
#222 = APPLICATION_PROTOCOL_DEFINITION ( 'international standard', 'config_control_design', 1994, #89 ) ;
#223 = EDGE_LOOP ( 'NONE', ( #257, #93, #149, #78 ) ) ;
#224 = PRODUCT_RELATED_PRODUCT_CATEGORY ( 'detail', '', ( #177 ) ) ;
#225 = CALENDAR_DATE ( 2020, 24, 12 ) ;
#226 = FACE_OUTER_BOUND ( 'NONE', #97, .T. ) ;
#227 = EDGE_LOOP ( 'NONE', ( #309, #173 ) ) ;
#228 = AXIS2_PLACEMENT_3D ( 'NONE', #121, #300, #218 ) ;
#229 = VERTEX_POINT ( 'NONE', #129 ) ;
#230 = VERTEX_POINT ( 'NONE', #109 ) ;
#231 = ORIENTED_EDGE ( 'NONE', *, *, #258, .T. ) ;
#232 = CIRCLE ( 'NONE', #157, 6.349999999999999645 ) ;
#233 = AXIS2_PLACEMENT_3D ( 'NONE', #270, #80, #61 ) ;
#234 = CYLINDRICAL_SURFACE ( 'NONE', #92, 6.349999999999999645 ) ;
#235 = DIRECTION ( 'NONE',  ( -1.000000000000000000, -0.000000000000000000, -0.000000000000000000 ) ) ;
#236 = FACE_BOUND ( 'NONE', #21, .T. ) ;
#237 = CIRCLE ( 'NONE', #260, 6.349999999999999645 ) ;
#238 = CARTESIAN_POINT ( 'NONE',  ( 1.500000000000000888, 0.000000000000000000, 0.000000000000000000 ) ) ;
#239 = DIRECTION ( 'NONE',  ( -0.000000000000000000, 0.000000000000000000, 1.000000000000000000 ) ) ;
#240 = MECHANICAL_CONTEXT ( 'NONE', #111, 'mechanical' ) ;
#241 = AXIS2_PLACEMENT_3D ( 'NONE', #135, #235, #130 ) ;
#242 = DIRECTION ( 'NONE',  ( -1.000000000000000000, -0.000000000000000000, -0.000000000000000000 ) ) ;
#243 = ORIENTED_EDGE ( 'NONE', *, *, #99, .F. ) ;
#244 = VECTOR ( 'NONE', #187, 1000.000000000000000 ) ;
#245 = EDGE_CURVE ( 'NONE', #230, #220, #322, .T. ) ;
#246 = CARTESIAN_POINT ( 'NONE',  ( 1.500000000000000888, 7.776507174585692163E-16, -6.349999999999999645 ) ) ;
#247 = COORDINATED_UNIVERSAL_TIME_OFFSET ( 8, 0, .AHEAD. ) ;
#248 = CARTESIAN_POINT ( 'NONE',  ( -1.614212418857619014, 7.776507174585692163E-16, -6.349999999999999645 ) ) ;
#249 = FACE_BOUND ( 'NONE', #227, .T. ) ;
#250 = ADVANCED_FACE ( 'NONE', ( #43 ), #274, .T. ) ;
#251 = PERSON_AND_ORGANIZATION_ROLE ( 'creator' ) ;
#252 = CYLINDRICAL_SURFACE ( 'NONE', #211, 12.69999999999999929 ) ;
#253 = APPROVAL_ROLE ( '' ) ;
#254 = PRODUCT_DEFINITION ( 'UNKNOWN', '', #60, #289 ) ;
#255 = EDGE_LOOP ( 'NONE', ( #214, #48, #142, #197 ) ) ;
#256 = AXIS2_PLACEMENT_3D ( 'NONE', #296, #269, #6 ) ;
#257 = ORIENTED_EDGE ( 'NONE', *, *, #297, .F. ) ;
#258 = EDGE_CURVE ( 'NONE', #326, #276, #70, .T. ) ;
#259 = CC_DESIGN_PERSON_AND_ORGANIZATION_ASSIGNMENT ( #137, #304, ( #254 ) ) ;
#260 = AXIS2_PLACEMENT_3D ( 'NONE', #36, #208, #155 ) ;
#261 = VERTEX_POINT ( 'NONE', #246 ) ;
#262 = EDGE_CURVE ( 'NONE', #230, #229, #303, .T. ) ;
#263 = ORIENTED_EDGE ( 'NONE', *, *, #32, .F. ) ;
#264 = CC_DESIGN_PERSON_AND_ORGANIZATION_ASSIGNMENT ( #307, #216, ( #60 ) ) ;
#265 = CIRCLE ( 'NONE', #241, 12.69999999999999929 ) ;
#266 = CARTESIAN_POINT ( 'NONE',  ( -1.614212418857619014, 0.000000000000000000, 0.000000000000000000 ) ) ;
#267 = CARTESIAN_POINT ( 'NONE',  ( -3.000000000000000000, 6.349999999999999645, 0.000000000000000000 ) ) ;
#268 = CARTESIAN_POINT ( 'NONE',  ( -1.614212418857619014, 0.000000000000000000, 0.000000000000000000 ) ) ;
#269 = DIRECTION ( 'NONE',  ( 1.000000000000000000, 0.000000000000000000, 0.000000000000000000 ) ) ;
#270 = CARTESIAN_POINT ( 'NONE',  ( -1.614212418857619014, 0.000000000000000000, 0.000000000000000000 ) ) ;
#271 = DIRECTION ( 'NONE',  ( 1.000000000000000000, 0.000000000000000000, 0.000000000000000000 ) ) ;
#272 = DIRECTION ( 'NONE',  ( -1.000000000000000000, -0.000000000000000000, -0.000000000000000000 ) ) ;
#273 = DIRECTION ( 'NONE',  ( -1.000000000000000000, -0.000000000000000000, -0.000000000000000000 ) ) ;
#274 = CYLINDRICAL_SURFACE ( 'NONE', #200, 12.69999999999999929 ) ;
#275 = DATE_AND_TIME ( #196, #14 ) ;
#276 = VERTEX_POINT ( 'NONE', #161 ) ;
#277 = AXIS2_PLACEMENT_3D ( 'NONE', #35, #184, #271 ) ;
#278 = LINE ( 'NONE', #139, #244 ) ;
#279 = COORDINATED_UNIVERSAL_TIME_OFFSET ( 8, 0, .AHEAD. ) ;
#280 = DIRECTION ( 'NONE',  ( -1.000000000000000000, -0.000000000000000000, -0.000000000000000000 ) ) ;
#281 = EDGE_CURVE ( 'NONE', #323, #170, #16, .T. ) ;
#282 = DATE_AND_TIME ( #225, #150 ) ;
#283 = DIRECTION ( 'NONE',  ( -1.000000000000000000, -0.000000000000000000, -0.000000000000000000 ) ) ;
#284 = PERSON_AND_ORGANIZATION ( #207, #116 ) ;
#285 = ORIENTED_EDGE ( 'NONE', *, *, #99, .T. ) ;
#286 = AXIS2_PLACEMENT_3D ( 'NONE', #168, #283, #198 ) ;
#287 = CIRCLE ( 'NONE', #256, 6.349999999999999645 ) ;
#288 = EDGE_LOOP ( 'NONE', ( #231, #101 ) ) ;
#289 = DESIGN_CONTEXT ( 'detailed design', #89, 'design' ) ;
#290 = APPROVAL ( #47, 'UNSPECIFIED' ) ;
#291 = CARTESIAN_POINT ( 'NONE',  ( 3.000000000000000000, 0.000000000000000000, 0.000000000000000000 ) ) ;
#292 = CC_DESIGN_APPROVAL ( #106, ( #60 ) ) ;
#293 = CARTESIAN_POINT ( 'NONE',  ( 1.500000000000000444, 6.349999999999999645, 0.000000000000000000 ) ) ;
#294 = DIRECTION ( 'NONE',  ( 0.000000000000000000, 0.000000000000000000, 1.000000000000000000 ) ) ;
#295 = APPLICATION_PROTOCOL_DEFINITION ( 'international standard', 'config_control_design', 1994, #111 ) ;
#296 = CARTESIAN_POINT ( 'NONE',  ( -1.500000000000000444, 0.000000000000000000, 0.000000000000000000 ) ) ;
#297 = EDGE_CURVE ( 'NONE', #27, #174, #278, .T. ) ;
#298 = DIRECTION ( 'NONE',  ( 1.000000000000000000, 0.000000000000000000, 0.000000000000000000 ) ) ;
#299 = LOCAL_TIME ( 9, 35, 24.00000000000000000, #122 ) ;
#300 = DIRECTION ( 'NONE',  ( -1.000000000000000000, -0.000000000000000000, -0.000000000000000000 ) ) ;
#301 = CARTESIAN_POINT ( 'NONE',  ( -1.500000000000000444, 7.776507174585692163E-16, -6.349999999999999645 ) ) ;
#302 = ADVANCED_FACE ( 'NONE', ( #39, #249 ), #19, .F. ) ;
#303 = LINE ( 'NONE', #215, #45 ) ;
#304 = PERSON_AND_ORGANIZATION_ROLE ( 'creator' ) ;
#305 = ORIENTED_EDGE ( 'NONE', *, *, #59, .T. ) ;
#306 = APPROVAL_PERSON_ORGANIZATION ( #87, #73, #165 ) ;
#307 = PERSON_AND_ORGANIZATION ( #207, #116 ) ;
#308 = FACE_OUTER_BOUND ( 'NONE', #141, .T. ) ;
#309 = ORIENTED_EDGE ( 'NONE', *, *, #245, .T. ) ;
#310 = VECTOR ( 'NONE', #120, 1000.000000000000000 ) ;
#311 = LINE ( 'NONE', #76, #163 ) ;
#312 = APPROVAL_PERSON_ORGANIZATION ( #284, #290, #253 ) ;
#313 = ADVANCED_BREP_SHAPE_REPRESENTATION ( 'QB-CTZHWP-12.7-894-M', ( #5, #277 ), #110 ) ;
#314 = EDGE_CURVE ( 'NONE', #261, #229, #2, .T. ) ;
#315 = DIRECTION ( 'NONE',  ( 0.000000000000000000, 0.000000000000000000, 1.000000000000000000 ) ) ;
#316 = CARTESIAN_POINT ( 'NONE',  ( -1.500000000000000444, 6.349999999999999645, 0.000000000000000000 ) ) ;
#317 = DIRECTION ( 'NONE',  ( -1.000000000000000000, -0.000000000000000000, -0.000000000000000000 ) ) ;
#318 = FACE_OUTER_BOUND ( 'NONE', #255, .T. ) ;
#319 = EDGE_CURVE ( 'NONE', #152, #276, #167, .T. ) ;
#320 = PLANE ( 'NONE',  #11 ) ;
#321 = CARTESIAN_POINT ( 'NONE',  ( -1.614212418857619014, 1.555301434917138433E-15, -12.69999999999999929 ) ) ;
#322 = CIRCLE ( 'NONE', #221, 6.349999999999999645 ) ;
#323 = VERTEX_POINT ( 'NONE', #327 ) ;
#324 = DIRECTION ( 'NONE',  ( -1.000000000000000000, -0.000000000000000000, -0.000000000000000000 ) ) ;
#325 = SECURITY_CLASSIFICATION_LEVEL ( 'unclassified' ) ;
#326 = VERTEX_POINT ( 'NONE', #13 ) ;
#327 = CARTESIAN_POINT ( 'NONE',  ( -1.500000000000000444, 0.000000000000000000, 6.349999999999999645 ) ) ;
#328 = DATE_AND_TIME ( #219, #299 ) ;
#329 = EDGE_LOOP ( 'NONE', ( #138, #15, #178, #331 ) ) ;
#330 = COORDINATED_UNIVERSAL_TIME_OFFSET ( 8, 0, .AHEAD. ) ;
#331 = ORIENTED_EDGE ( 'NONE', *, *, #59, .F. ) ;
#332 = DATE_TIME_ROLE ( 'creation_date' ) ;
#333 = CYLINDRICAL_SURFACE ( 'NONE', #143, 6.349999999999999645 ) ;
#334 = EDGE_LOOP ( 'NONE', ( #191, #124 ) ) ;
#335 = AXIS2_PLACEMENT_3D ( 'NONE', #291, #317, #186 ) ;
ENDSEC;
END-ISO-10303-21;
